Melvins — Steve Instant Neuman lyrics

Melvins - Steve Instant Neuman (Aka Disinvite)

Tuning: Drop D

Notes: x beneath a chord means palm mute

Order: Verse Riff 1 (4x)
Verse Riff 2 (2x)
Chorus (3x)
Solo Part 1
Solo Part 2
Solo Part 3
Bridge 1
Bridge 2
Verse Riff 2 (2x)
Chorus (3x)
Outro

Verse Riff 1
A|-3-3-3-4~~3-3-4-3-3-4-|
D|-3-3-3-4~~3-3-4-3-3-4-|
X x x x x x

Verse Riff 2
A|-3-3-3-3-3-3-3-4~~3-3-4-3-3-4-|
D|-3-3-3-3-3-3-3-4~~3-3-4-3-3-4-|
X x x x x x x x x x

Chorus
A|-9-9-9-9-9-10-9-9-10-9-9-10-9-10~~|
D|-9-9-9-9-9-10-9-9-10-9-9-10-9-10~~|
X x x x x x x x x

Solo Part 1
E|------------------------------------------|
B|------------------------------------------|
G|---------2-3~2-3-3b-2-32323232-2----------|
D|-----2-3-------------------------2-2-2-2~~|
A|-3-3--------------------------------------|
D|------------------------------------------|

Solo Part 2
E|----------------------------------------------|
B|----------------------------------------------|
G|-/10-10-10-10-10-10-10-11~~-10-10-11-10-10-11-|
D|-/10-10-10-10-10-10-10-11~~-10-10-11-10-10-11-|
A|----------------------------------------------|
D|----------------------------------------------|

Solo Part 3
E|-----------------------------------------|
B|-----------------------------------------|
G|-11-10-----------------------------------|
D|-------11-10-----------------------------|
A|-------------11-10-9-8~~8-8-9-8-9--------|
D|-----------------------------------------|

Bridge 1
A|-3-3-3/15\4---3-3-4-3-3-4-|
D|-3-3-3----4---3-3-4-3-3-4-|
X x

Bridge 2
A|-3-3-3----4---3-3-4-3-3-4-|
D|-3-3-3----4---3-3-4-3-3-4-|
X x

Outro
A|-3-3-3-|
D|-3-3-3-|
[ Lyrics from: http://www.lyricsty.com/melvins-steve-instant-neuman-lyrics.html ]